149,753 views 186 on YTPak
812 72

Published on 11 Sep 2012 | over 4 years ago

Kal Ho Naa Ho- Heartbeat Instrumental (Guitar)


E|-----------------------------------------10--8---------------------------------|
B|--11--10--11--10--11--10--11-----------11--10--8--10--8--10---|
G|---------------------------------------------------------------------------------|
D|---------------------------------------------------------------------------------| x2

E|----------------------------------------------------------------------------------------------------|
B|--------------11-------------------------------------------11------------9—8------------------|
G|--/10--12-------12--/8--10--12--10------/10--12-------12--/8-----------10--8--10--|
D|----------------------------------------------------------------------------------------------------|

E|-------------8--------------------------------------------8----------------------------------------|
B|--10--11--------------------------------------10--11----------------------------7/8----------|
G|----------------10--10--8--7--8—8/10----------------10--10--8--7--8------------------|
D|----------------------------------------------------------------------------------------------------|

E|-------------10--8--8--10--8-----------------------10--8--8--10--8-----------------------|
B|--10--11------------------------11--10--10--11-----------------------11--10-------------|
G|----------------------------------------------------------------------------------------------------|
D|----------------------------------------------------------------------------------------------------|

E|-------------10--12--8--10--8-----------------------------------------------------------------|
B|--10--11-------------------------10--10--11--8----------------------------------------------|
G|------------------------------------------------------10------------------------------------------|
D|---------------------------------------------------------------------------------------------------|

Loading related videos...