163,649 views 148 on YTPak
1,423 76

Published on 06 Dec 2015 | about 1 year ago

❤❤❤❤❤❤❤❤❤Kindly Check Description❤❤❤❤❤❤❤❤



Detailed lesson of this Intro - www.youtube.com/watch


In place of Em in the first part use a C
( Ek jaan hai bhale do badan ho juda )

My Instagram - sagar636


kindly follow this intro tabs..

In meri hoke hamesa he rehena part I skipped 2 notes ( sorry for that).

E-7-9-7-(10)-(9)-(7)-------------------------------------
B------------------------------10-8-7-(8)--8-10-7-(8)-
G----------------------------------------------------------------
D----------------------------------------------------------------


E--(9)--(7)-----------------------------------------------
B---------------(10)--10-8-------(7)-7-8-----(7)---
G-----------------------------------9------------9----------
D-------------------------------------------------------------

E----------(9)--------------------------------------------------
B-7-------------(10)--(8)--8-7--------------7------------
G----9-7----------------------------7-(9)--9------7-(9)--
D----------------------------------------------------------------


E---------------------------------------------------------------------------
B---------------------------------------------------------------10-8-7--
G-3-4-6--3--------3-4---3-4-6---4-6-7---6-7-9----------------
D---------------4-6-------------------------------------------------------


The notes in () means you have to pick the note faster like I am doing in the video...

Loading related videos...