223,498 views 500 on YTPak
1,067 107

Published on 06 Jan 2012 | over 5 years ago

TABS:
E---0-0-0-7-5-7-3--5--8-7-
Tujhe dekha to ye jaana sanam,

E---0--0-0-7-5-7-3--5--3-2
Pyaar hota hai deewana sanam.

E---0-2---0--2-0--3-2----
B------3------3----------
Ab yahan se kahan jaaen hum

E---0-2---0--2--3--2-0---
B------3------3----------
Teri baanhon mein mar jaaen hum.

E---0-0-0-7-5-7-3--5--8-7-
Tujhe dekha to ye jaana sanam,

E---0--0-0-7-5-7-3--5--3-2
Pyaar hota hai deewana sanam.

E---0-2---0--2-0--3-2----
B------3------3----------
Ab yahan se kahan jaaen hum

E-----------10--8--7--------
B---7-8-10-----------8--7--5
Teri baanhon mein mar jaaen hum

E---0-0-0-7-5-7-3--5--8-7-
Tujhe dekha to ye jaana sanam

E---0--0-0-7-5-7-3--5--3-2
Pyaar hota hai deewana sanam.....

Loading related videos...